«

»

Jun 28

Ein cooles Blues-Rock-Riff in E

e||----------------------------------------------------------------------|e
b||----------------------------------------------------------------------|b
g||----------------------------------------------------------------------|g
d||--6-7-8-9--h----5-7-6-------------------h----5-7-6--------0--/-2------|d
a||--4-5-6-7--^--5-------7-5-7-----0--/----^--5-------7-5-7----4-----/||-|a
e||----------5-7---------------7-6---3-0--5-7-----------------------3----|e

e||----------------------------------------------------------------------|e
b||----------------------------------------------------------------------|b
g||----------------------------------------------------------------------|g
d||------h----5-7-6-------------------h----5-7-6------6-7-8-9---h----5---|d
a||------^--5-------7-5-7-----0--/----^--5-------7-5--4-5-6-7---^--5-----|a
e||--0--5-7---------------7-6---3-0--5-7-----------------------5-7-------|e

e||----------------------------------------------------------------------|e
b||----------------------------------------------------------------------|b
g||----------------------------------------------------------------------|g
d||--7-6-------------------h----5-7-6-------0--/-0--/-2------------------|d
a||------7-5-7-----0--/----^--5-------7-5-7---4----4------/--------------|a
e||------------7-6---3-0--5-7----------------------------3--0------------|e

e||----------------------------------------------------------------------|e
b||----------------------------------------------------------------------|b
g||----------------------------------------------------------------------|g
d||---h----5-7-6--------------------h----5-7-6--------6-7-8-9------------|d
a||---^--5-------7-5-7------0--/----^--5-------7-5-7--4-5-6-7------------|a
e||--5-7---------------7-6----3--0-5-7-----------------------------------|e

Permanentlink zu diesem Beitrag: http://musikunterricht-ravensburg.de/riffs-licks-und-tipps/ein-cooles-blues-rock-riff-in-e/

Schreibe einen Kommentar

Deine E-Mail-Adresse wird nicht veröffentlicht. Erforderliche Felder sind mit * markiert.

Sie können diese HTML-Tags verwenden: <a href="" title=""> <abbr title=""> <acronym title=""> <b> <blockquote cite=""> <cite> <code> <del datetime=""> <em> <i> <q cite=""> <s> <strike> <strong>


neun − 8 =